ISO-10303-21;
HEADER;
FILE_DESCRIPTION (( 'STEP AP203' ),
    '1' );
FILE_NAME ('Q-DWWP-R42-12.7-1064-SH-M.STEP',
    '2020-12-22T08:54:26',
    ( '' ),
    ( '' ),
    'SwSTEP 2.0',
    'SolidWorks 2020',
    '' );
FILE_SCHEMA (( 'CONFIG_CONTROL_DESIGN' ));
ENDSEC;

DATA;
#1 = PLANE ( 'NONE',  #202 ) ;
#2 = LINE ( 'NONE', #94, #234 ) ;
#3 =( GEOMETRIC_REPRESENTATION_CONTEXT ( 3 ) GLOBAL_UNCERTAINTY_ASSIGNED_CONTEXT ( ( #130 ) ) GLOBAL_UNIT_ASSIGNED_CONTEXT ( ( #60, #166, #31 ) ) REPRESENTATION_CONTEXT ( 'NONE', 'WORKASPACE' ) );
#4 = SHAPE_DEFINITION_REPRESENTATION ( #178, #151 ) ;
#5 = CARTESIAN_POINT ( 'NONE',  ( -1.614212418857619014, 0.000000000000000000, 0.000000000000000000 ) ) ;
#6 = CALENDAR_DATE ( 2020, 22, 12 ) ;
#7 = ORIENTED_EDGE ( 'NONE', *, *, #248, .T. ) ;
#8 = DIRECTION ( 'NONE',  ( -1.000000000000000000, -0.000000000000000000, -0.000000000000000000 ) ) ;
#9 = PERSON_AND_ORGANIZATION_ROLE ( 'creator' ) ;
#10 = LINE ( 'NONE', #79, #125 ) ;
#11 = DATE_AND_TIME ( #321, #115 ) ;
#12 = DIRECTION ( 'NONE',  ( 0.000000000000000000, 0.000000000000000000, -1.000000000000000000 ) ) ;
#13 = EDGE_CURVE ( 'NONE', #200, #250, #143, .T. ) ;
#14 = APPROVAL_ROLE ( '' ) ;
#15 = PERSON ( 'UNSPECIFIED', 'UNSPECIFIED', 'UNSPECIFIED', ('UNSPECIFIED'), ('UNSPECIFIED'), ('UNSPECIFIED') ) ;
#16 = VERTEX_POINT ( 'NONE', #66 ) ;
#17 = APPLICATION_PROTOCOL_DEFINITION ( 'international standard', 'config_control_design', 1994, #205 ) ;
#18 = DIRECTION ( 'NONE',  ( -1.000000000000000000, -0.000000000000000000, -0.000000000000000000 ) ) ;
#19 = COORDINATED_UNIVERSAL_TIME_OFFSET ( 8, 0, .AHEAD. ) ;
#20 = ORIENTED_EDGE ( 'NONE', *, *, #32, .F. ) ;
#21 = DIRECTION ( 'NONE',  ( -1.000000000000000000, -0.000000000000000000, -0.000000000000000000 ) ) ;
#22 = ORIENTED_EDGE ( 'NONE', *, *, #71, .F. ) ;
#23 = DIRECTION ( 'NONE',  ( -1.000000000000000000, 0.000000000000000000, -0.000000000000000000 ) ) ;
#24 = CYLINDRICAL_SURFACE ( 'NONE', #301, 3.000000000000000000 ) ;
#25 = APPROVAL_PERSON_ORGANIZATION ( #319, #149, #242 ) ;
#26 = DIRECTION ( 'NONE',  ( -1.000000000000000000, -0.000000000000000000, -0.000000000000000000 ) ) ;
#27 = CARTESIAN_POINT ( 'NONE',  ( 0.5000000000000004441, 0.000000000000000000, 3.000000000000000000 ) ) ;
#28 = AXIS2_PLACEMENT_3D ( 'NONE', #47, #230, #331 ) ;
#29 = APPROVAL_DATE_TIME ( #263, #74 ) ;
#30 = EDGE_LOOP ( 'NONE', ( #165, #196, #110, #43 ) ) ;
#31 =( NAMED_UNIT ( * ) SI_UNIT ( $, .STERADIAN. ) SOLID_ANGLE_UNIT ( ) );
#32 = EDGE_CURVE ( 'NONE', #105, #141, #164, .T. ) ;
#33 = DIRECTION ( 'NONE',  ( 1.000000000000000000, 0.000000000000000000, 0.000000000000000000 ) ) ;
#34 = PERSON_AND_ORGANIZATION ( #15, #232 ) ;
#35 = CIRCLE ( 'NONE', #305, 3.000000000000000000 ) ;
#36 = CC_DESIGN_SECURITY_CLASSIFICATION ( #148, ( #270 ) ) ;
#37 = PERSON_AND_ORGANIZATION ( #15, #232 ) ;
#38 = DATE_AND_TIME ( #285, #169 ) ;
#39 = ORIENTED_EDGE ( 'NONE', *, *, #273, .T. ) ;
#40 = CARTESIAN_POINT ( 'NONE',  ( 0.000000000000000000, 0.000000000000000000, 0.000000000000000000 ) ) ;
#41 = ORIENTED_EDGE ( 'NONE', *, *, #214, .F. ) ;
#42 = DIRECTION ( 'NONE',  ( 0.000000000000000000, 0.000000000000000000, -1.000000000000000000 ) ) ;
#43 = ORIENTED_EDGE ( 'NONE', *, *, #119, .F. ) ;
#44 = ORIENTED_EDGE ( 'NONE', *, *, #113, .T. ) ;
#45 = CC_DESIGN_PERSON_AND_ORGANIZATION_ASSIGNMENT ( #62, #140, ( #148 ) ) ;
#46 = CARTESIAN_POINT ( 'NONE',  ( 1.500000000000000222, 5.000000000000000000, 0.000000000000000000 ) ) ;
#47 = CARTESIAN_POINT ( 'NONE',  ( 1.500000000000000444, 0.000000000000000000, 0.000000000000000000 ) ) ;
#48 = CARTESIAN_POINT ( 'NONE',  ( -1.500000000000000000, 0.000000000000000000, 0.000000000000000000 ) ) ;
#49 = APPROVAL ( #134, 'UNSPECIFIED' ) ;
#50 = CARTESIAN_POINT ( 'NONE',  ( 1.500000000000000444, 3.673940397442059868E-16, -3.000000000000000000 ) ) ;
#51 = ADVANCED_FACE ( 'NONE', ( #327 ), #90, .F. ) ;
#52 = AXIS2_PLACEMENT_3D ( 'NONE', #252, #329, #112 ) ;
#53 = CARTESIAN_POINT ( 'NONE',  ( -1.500000000000000000, 6.123233995736766282E-16, -5.000000000000000000 ) ) ;
#54 = DIRECTION ( 'NONE',  ( 0.000000000000000000, 0.000000000000000000, 1.000000000000000000 ) ) ;
#55 = CYLINDRICAL_SURFACE ( 'NONE', #69, 5.000000000000000000 ) ;
#56 = CC_DESIGN_APPROVAL ( #74, ( #148 ) ) ;
#57 = COORDINATED_UNIVERSAL_TIME_OFFSET ( 8, 0, .AHEAD. ) ;
#58 = COORDINATED_UNIVERSAL_TIME_OFFSET ( 8, 0, .AHEAD. ) ;
#59 = CARTESIAN_POINT ( 'NONE',  ( -1.500000000000000000, 3.000000000000000000, 0.000000000000000000 ) ) ;
#60 =( LENGTH_UNIT ( ) NAMED_UNIT ( * ) SI_UNIT ( .MILLI., .METRE. ) );
#61 = ORIENTED_EDGE ( 'NONE', *, *, #258, .F. ) ;
#62 = PERSON_AND_ORGANIZATION ( #15, #232 ) ;
#63 = CC_DESIGN_DATE_AND_TIME_ASSIGNMENT ( #38, #291, ( #225 ) ) ;
#64 = ORIENTED_EDGE ( 'NONE', *, *, #182, .F. ) ;
#65 = LINE ( 'NONE', #265, #120 ) ;
#66 = CARTESIAN_POINT ( 'NONE',  ( 1.500000000000000444, 0.000000000000000000, 3.000000000000000000 ) ) ;
#67 = ORIENTED_EDGE ( 'NONE', *, *, #122, .F. ) ;
#68 = EDGE_LOOP ( 'NONE', ( #20, #203 ) ) ;
#69 = AXIS2_PLACEMENT_3D ( 'NONE', #316, #131, #241 ) ;
#70 = FACE_BOUND ( 'NONE', #83, .T. ) ;
#71 = EDGE_CURVE ( 'NONE', #16, #219, #226, .T. ) ;
#72 = DIRECTION ( 'NONE',  ( 0.000000000000000000, 0.000000000000000000, 1.000000000000000000 ) ) ;
#73 = DIRECTION ( 'NONE',  ( -1.000000000000000000, -0.000000000000000000, -0.000000000000000000 ) ) ;
#74 = APPROVAL ( #323, 'UNSPECIFIED' ) ;
#75 = FACE_OUTER_BOUND ( 'NONE', #88, .T. ) ;
#76 = CYLINDRICAL_SURFACE ( 'NONE', #133, 5.000000000000000000 ) ;
#77 = ORIENTED_EDGE ( 'NONE', *, *, #119, .T. ) ;
#78 = CALENDAR_DATE ( 2020, 22, 12 ) ;
#79 = CARTESIAN_POINT ( 'NONE',  ( -1.614212418857619014, 3.673940397442059868E-16, -3.000000000000000000 ) ) ;
#80 = LOCAL_TIME ( 16, 54, 26.00000000000000000, #238 ) ;
#81 = DIRECTION ( 'NONE',  ( 1.000000000000000000, 0.000000000000000000, 0.000000000000000000 ) ) ;
#82 = DIRECTION ( 'NONE',  ( -1.000000000000000000, -0.000000000000000000, -0.000000000000000000 ) ) ;
#83 = EDGE_LOOP ( 'NONE', ( #7, #247 ) ) ;
#84 = CIRCLE ( 'NONE', #152, 3.000000000000000000 ) ;
#85 = APPROVAL_STATUS ( 'not_yet_approved' ) ;
#86 = CC_DESIGN_APPROVAL ( #49, ( #225 ) ) ;
#87 = PERSON_AND_ORGANIZATION ( #15, #232 ) ;
#88 = EDGE_LOOP ( 'NONE', ( #325, #128, #183, #292 ) ) ;
#89 = CIRCLE ( 'NONE', #281, 5.000000000000000000 ) ;
#90 = PLANE ( 'NONE',  #181 ) ;
#91 = ORIENTED_EDGE ( 'NONE', *, *, #296, .F. ) ;
#92 = AXIS2_PLACEMENT_3D ( 'NONE', #147, #229, #293 ) ;
#93 = VERTEX_POINT ( 'NONE', #109 ) ;
#94 = CARTESIAN_POINT ( 'NONE',  ( -1.614212418857619014, 0.000000000000000000, 3.000000000000000000 ) ) ;
#95 = CARTESIAN_POINT ( 'NONE',  ( 1.500000000000000000, 6.123233995736766282E-16, -5.000000000000000000 ) ) ;
#96 = CARTESIAN_POINT ( 'NONE',  ( 0.5000000000000004441, 0.000000000000000000, 0.000000000000000000 ) ) ;
#97 = CARTESIAN_POINT ( 'NONE',  ( -0.5000000000000002220, 3.000000000000000000, 0.000000000000000000 ) ) ;
#98 = EDGE_CURVE ( 'NONE', #141, #105, #194, .T. ) ;
#99 = DIRECTION ( 'NONE',  ( 0.000000000000000000, 0.000000000000000000, -1.000000000000000000 ) ) ;
#100 = CARTESIAN_POINT ( 'NONE',  ( -1.614212418857619014, 0.000000000000000000, 5.000000000000000000 ) ) ;
#101 = CYLINDRICAL_SURFACE ( 'NONE', #186, 3.000000000000000000 ) ;
#102 = DIRECTION ( 'NONE',  ( 0.000000000000000000, 0.000000000000000000, 1.000000000000000000 ) ) ;
#103 = CLOSED_SHELL ( 'NONE', ( #328, #117, #298, #51, #310, #170, #271, #287, #245, #195 ) ) ;
#104 = CARTESIAN_POINT ( 'NONE',  ( -1.500000000000000000, 0.000000000000000000, 0.000000000000000000 ) ) ;
#105 = VERTEX_POINT ( 'NONE', #335 ) ;
#106 = PRODUCT_RELATED_PRODUCT_CATEGORY ( 'detail', '', ( #317 ) ) ;
#107 = CALENDAR_DATE ( 2020, 22, 12 ) ;
#108 = AXIS2_PLACEMENT_3D ( 'NONE', #199, #326, #249 ) ;
#109 = CARTESIAN_POINT ( 'NONE',  ( -1.500000000000000000, 0.000000000000000000, 3.000000000000000000 ) ) ;
#110 = ORIENTED_EDGE ( 'NONE', *, *, #214, .T. ) ;
#111 = DIRECTION ( 'NONE',  ( -1.000000000000000000, -0.000000000000000000, -0.000000000000000000 ) ) ;
#112 = DIRECTION ( 'NONE',  ( 0.000000000000000000, 0.000000000000000000, 1.000000000000000000 ) ) ;
#113 = EDGE_CURVE ( 'NONE', #93, #221, #334, .T. ) ;
#114 = VERTEX_POINT ( 'NONE', #306 ) ;
#115 = LOCAL_TIME ( 16, 54, 26.00000000000000000, #57 ) ;
#116 = EDGE_LOOP ( 'NONE', ( #91, #216 ) ) ;
#117 = ADVANCED_FACE ( 'NONE', ( #304 ), #24, .F. ) ;
#118 = DIRECTION ( 'NONE',  ( -0.000000000000000000, 0.000000000000000000, 1.000000000000000000 ) ) ;
#119 = EDGE_CURVE ( 'NONE', #250, #93, #2, .T. ) ;
#120 = VECTOR ( 'NONE', #135, 1000.000000000000000 ) ;
#121 = AXIS2_PLACEMENT_3D ( 'NONE', #40, #314, #81 ) ;
#122 = EDGE_CURVE ( 'NONE', #137, #219, #266, .T. ) ;
#123 = CARTESIAN_POINT ( 'NONE',  ( -1.500000000000000000, 3.673940397442059868E-16, -3.000000000000000000 ) ) ;
#124 = DIRECTION ( 'NONE',  ( 0.000000000000000000, 0.000000000000000000, 1.000000000000000000 ) ) ;
#125 = VECTOR ( 'NONE', #82, 1000.000000000000000 ) ;
#126 = CARTESIAN_POINT ( 'NONE',  ( -1.614212418857619014, 0.000000000000000000, 0.000000000000000000 ) ) ;
#127 = DIRECTION ( 'NONE',  ( -1.000000000000000000, -0.000000000000000000, -0.000000000000000000 ) ) ;
#128 = ORIENTED_EDGE ( 'NONE', *, *, #248, .F. ) ;
#129 = APPROVAL_DATE_TIME ( #11, #149 ) ;
#130 = UNCERTAINTY_MEASURE_WITH_UNIT (LENGTH_MEASURE( 1.000000000000000082E-05 ), #60, 'distance_accuracy_value', 'NONE');
#131 = DIRECTION ( 'NONE',  ( -1.000000000000000000, -0.000000000000000000, -0.000000000000000000 ) ) ;
#132 = VECTOR ( 'NONE', #8, 1000.000000000000000 ) ;
#133 = AXIS2_PLACEMENT_3D ( 'NONE', #5, #222, #294 ) ;
#134 = APPROVAL_STATUS ( 'not_yet_approved' ) ;
#135 = DIRECTION ( 'NONE',  ( -1.000000000000000000, -0.000000000000000000, -0.000000000000000000 ) ) ;
#136 = LOCAL_TIME ( 16, 54, 26.00000000000000000, #288 ) ;
#137 = VERTEX_POINT ( 'NONE', #236 ) ;
#138 = PERSON_AND_ORGANIZATION ( #15, #232 ) ;
#139 = ORIENTED_EDGE ( 'NONE', *, *, #256, .T. ) ;
#140 = PERSON_AND_ORGANIZATION_ROLE ( 'classification_officer' ) ;
#141 = VERTEX_POINT ( 'NONE', #95 ) ;
#142 = DIRECTION ( 'NONE',  ( -1.000000000000000000, -0.000000000000000000, -0.000000000000000000 ) ) ;
#143 = CIRCLE ( 'NONE', #92, 3.000000000000000000 ) ;
#144 = EDGE_LOOP ( 'NONE', ( #64, #284, #289, #322 ) ) ;
#145 = PERSON_AND_ORGANIZATION ( #15, #232 ) ;
#146 = DIRECTION ( 'NONE',  ( -1.000000000000000000, 0.000000000000000000, -0.000000000000000000 ) ) ;
#147 = CARTESIAN_POINT ( 'NONE',  ( -0.5000000000000002220, 0.000000000000000000, 0.000000000000000000 ) ) ;
#148 = SECURITY_CLASSIFICATION ( '', '', #309 ) ;
#149 = APPROVAL ( #85, 'UNSPECIFIED' ) ;
#150 = DIRECTION ( 'NONE',  ( 0.000000000000000000, 0.000000000000000000, 1.000000000000000000 ) ) ;
#151 = ADVANCED_BREP_SHAPE_REPRESENTATION ( 'Q-DWWP-R42-12.7-1064-SH-M', ( #176, #121 ), #3 ) ;
#152 = AXIS2_PLACEMENT_3D ( 'NONE', #156, #261, #177 ) ;
#153 = DIRECTION ( 'NONE',  ( -1.000000000000000000, -0.000000000000000000, -0.000000000000000000 ) ) ;
#154 = CC_DESIGN_PERSON_AND_ORGANIZATION_ASSIGNMENT ( #34, #272, ( #225 ) ) ;
#155 = CYLINDRICAL_SURFACE ( 'NONE', #189, 3.000000000000000000 ) ;
#156 = CARTESIAN_POINT ( 'NONE',  ( -1.500000000000000000, 0.000000000000000000, 0.000000000000000000 ) ) ;
#157 = CARTESIAN_POINT ( 'NONE',  ( -1.614212418857619014, 0.000000000000000000, 0.000000000000000000 ) ) ;
#158 = APPROVAL_ROLE ( '' ) ;
#159 = CC_DESIGN_DATE_AND_TIME_ASSIGNMENT ( #184, #227, ( #148 ) ) ;
#160 = APPROVAL_DATE_TIME ( #217, #49 ) ;
#161 = ORIENTED_EDGE ( 'NONE', *, *, #324, .T. ) ;
#162 = AXIS2_PLACEMENT_3D ( 'NONE', #59, #33, #12 ) ;
#163 = PERSON_AND_ORGANIZATION ( #15, #232 ) ;
#164 = CIRCLE ( 'NONE', #52, 5.000000000000000000 ) ;
#165 = ORIENTED_EDGE ( 'NONE', *, *, #296, .T. ) ;
#166 =( NAMED_UNIT ( * ) PLANE_ANGLE_UNIT ( ) SI_UNIT ( $, .RADIAN. ) );
#167 = ORIENTED_EDGE ( 'NONE', *, *, #122, .T. ) ;
#168 = VERTEX_POINT ( 'NONE', #50 ) ;
#169 = LOCAL_TIME ( 16, 54, 26.00000000000000000, #58 ) ;
#170 = ADVANCED_FACE ( 'NONE', ( #259 ), #155, .F. ) ;
#171 = CARTESIAN_POINT ( 'NONE',  ( 0.5000000000000002220, 3.000000000000000000, 0.000000000000000000 ) ) ;
#172 = VECTOR ( 'NONE', #26, 1000.000000000000000 ) ;
#173 = EDGE_LOOP ( 'NONE', ( #318, #223, #297, #218 ) ) ;
#174 = AXIS2_PLACEMENT_3D ( 'NONE', #283, #277, #42 ) ;
#175 = CARTESIAN_POINT ( 'NONE',  ( -1.614212418857619014, 6.123233995736766282E-16, -5.000000000000000000 ) ) ;
#176 = MANIFOLD_SOLID_BREP ( 'Ðý×', #103 ) ;
#177 = DIRECTION ( 'NONE',  ( 0.000000000000000000, 0.000000000000000000, 1.000000000000000000 ) ) ;
#178 = PRODUCT_DEFINITION_SHAPE ( 'NONE', 'NONE',  #225 ) ;
#179 = LOCAL_TIME ( 16, 54, 26.00000000000000000, #19 ) ;
#180 = FACE_OUTER_BOUND ( 'NONE', #116, .T. ) ;
#181 = AXIS2_PLACEMENT_3D ( 'NONE', #171, #146, #299 ) ;
#182 = EDGE_CURVE ( 'NONE', #141, #197, #235, .T. ) ;
#183 = ORIENTED_EDGE ( 'NONE', *, *, #71, .T. ) ;
#184 = DATE_AND_TIME ( #78, #179 ) ;
#185 = CYLINDRICAL_SURFACE ( 'NONE', #224, 3.000000000000000000 ) ;
#186 = AXIS2_PLACEMENT_3D ( 'NONE', #157, #311, #262 ) ;
#187 = MECHANICAL_CONTEXT ( 'NONE', #254, 'mechanical' ) ;
#188 = AXIS2_PLACEMENT_3D ( 'NONE', #48, #255, #257 ) ;
#189 = AXIS2_PLACEMENT_3D ( 'NONE', #126, #206, #124 ) ;
#190 = CC_DESIGN_PERSON_AND_ORGANIZATION_ASSIGNMENT ( #37, #240, ( #317 ) ) ;
#191 = APPLICATION_PROTOCOL_DEFINITION ( 'international standard', 'config_control_design', 1994, #254 ) ;
#192 = APPROVAL_PERSON_ORGANIZATION ( #145, #74, #158 ) ;
#193 = PERSON_AND_ORGANIZATION_ROLE ( 'design_supplier' ) ;
#194 = CIRCLE ( 'NONE', #244, 5.000000000000000000 ) ;
#195 = ADVANCED_FACE ( 'NONE', ( #180 ), #1, .F. ) ;
#196 = ORIENTED_EDGE ( 'NONE', *, *, #258, .T. ) ;
#197 = VERTEX_POINT ( 'NONE', #53 ) ;
#198 = AXIS2_PLACEMENT_3D ( 'NONE', #46, #23, #118 ) ;
#199 = CARTESIAN_POINT ( 'NONE',  ( 1.500000000000000444, 0.000000000000000000, 0.000000000000000000 ) ) ;
#200 = VERTEX_POINT ( 'NONE', #209 ) ;
#201 = EDGE_LOOP ( 'NONE', ( #276, #41 ) ) ;
#202 = AXIS2_PLACEMENT_3D ( 'NONE', #97, #302, #99 ) ;
#203 = ORIENTED_EDGE ( 'NONE', *, *, #98, .F. ) ;
#204 = CARTESIAN_POINT ( 'NONE',  ( -0.5000000000000002220, 0.000000000000000000, 3.000000000000000000 ) ) ;
#205 = APPLICATION_CONTEXT ( 'configuration controlled 3d designs of mechanical parts and assemblies' ) ;
#206 = DIRECTION ( 'NONE',  ( -1.000000000000000000, -0.000000000000000000, -0.000000000000000000 ) ) ;
#207 = CARTESIAN_POINT ( 'NONE',  ( 1.500000000000000000, 0.000000000000000000, 0.000000000000000000 ) ) ;
#208 = CIRCLE ( 'NONE', #174, 3.000000000000000000 ) ;
#209 = CARTESIAN_POINT ( 'NONE',  ( -0.5000000000000002220, 3.673940397442059868E-16, -3.000000000000000000 ) ) ;
#210 = CARTESIAN_POINT ( 'NONE',  ( -1.614212418857619014, 0.000000000000000000, 0.000000000000000000 ) ) ;
#211 = DIRECTION ( 'NONE',  ( 0.000000000000000000, 0.000000000000000000, 1.000000000000000000 ) ) ;
#212 = CC_DESIGN_APPROVAL ( #149, ( #270 ) ) ;
#213 = DESIGN_CONTEXT ( 'detailed design', #205, 'design' ) ;
#214 = EDGE_CURVE ( 'NONE', #221, #93, #84, .T. ) ;
#215 = FACE_OUTER_BOUND ( 'NONE', #144, .T. ) ;
#216 = ORIENTED_EDGE ( 'NONE', *, *, #13, .F. ) ;
#217 = DATE_AND_TIME ( #107, #136 ) ;
#218 = ORIENTED_EDGE ( 'NONE', *, *, #260, .F. ) ;
#219 = VERTEX_POINT ( 'NONE', #27 ) ;
#220 = CC_DESIGN_PERSON_AND_ORGANIZATION_ASSIGNMENT ( #163, #9, ( #270 ) ) ;
#221 = VERTEX_POINT ( 'NONE', #123 ) ;
#222 = DIRECTION ( 'NONE',  ( -1.000000000000000000, -0.000000000000000000, -0.000000000000000000 ) ) ;
#223 = ORIENTED_EDGE ( 'NONE', *, *, #182, .T. ) ;
#224 = AXIS2_PLACEMENT_3D ( 'NONE', #210, #21, #54 ) ;
#225 = PRODUCT_DEFINITION ( 'UNKNOWN', '', #270, #213 ) ;
#226 = LINE ( 'NONE', #274, #300 ) ;
#227 = DATE_TIME_ROLE ( 'classification_date' ) ;
#228 = CIRCLE ( 'NONE', #333, 5.000000000000000000 ) ;
#229 = DIRECTION ( 'NONE',  ( 1.000000000000000000, 0.000000000000000000, 0.000000000000000000 ) ) ;
#230 = DIRECTION ( 'NONE',  ( -1.000000000000000000, -0.000000000000000000, -0.000000000000000000 ) ) ;
#231 = DIRECTION ( 'NONE',  ( -1.000000000000000000, -0.000000000000000000, -0.000000000000000000 ) ) ;
#232 = ORGANIZATION ( 'UNSPECIFIED', 'UNSPECIFIED', '' ) ;
#233 = CARTESIAN_POINT ( 'NONE',  ( -1.614212418857619014, 0.000000000000000000, 0.000000000000000000 ) ) ;
#234 = VECTOR ( 'NONE', #231, 1000.000000000000000 ) ;
#235 = LINE ( 'NONE', #175, #172 ) ;
#236 = CARTESIAN_POINT ( 'NONE',  ( 0.5000000000000004441, 3.673940397442059868E-16, -3.000000000000000000 ) ) ;
#237 = FACE_OUTER_BOUND ( 'NONE', #173, .T. ) ;
#238 = COORDINATED_UNIVERSAL_TIME_OFFSET ( 8, 0, .AHEAD. ) ;
#239 = EDGE_LOOP ( 'NONE', ( #161, #39 ) ) ;
#240 = PERSON_AND_ORGANIZATION_ROLE ( 'design_owner' ) ;
#241 = DIRECTION ( 'NONE',  ( 0.000000000000000000, 0.000000000000000000, 1.000000000000000000 ) ) ;
#242 = APPROVAL_ROLE ( '' ) ;
#243 = LINE ( 'NONE', #100, #132 ) ;
#244 = AXIS2_PLACEMENT_3D ( 'NONE', #207, #280, #150 ) ;
#245 = ADVANCED_FACE ( 'NONE', ( #279, #70 ), #278, .F. ) ;
#246 = EDGE_LOOP ( 'NONE', ( #61, #320, #77, #44 ) ) ;
#247 = ORIENTED_EDGE ( 'NONE', *, *, #330, .T. ) ;
#248 = EDGE_CURVE ( 'NONE', #16, #168, #275, .T. ) ;
#249 = DIRECTION ( 'NONE',  ( 0.000000000000000000, 0.000000000000000000, 1.000000000000000000 ) ) ;
#250 = VERTEX_POINT ( 'NONE', #204 ) ;
#251 = FACE_OUTER_BOUND ( 'NONE', #253, .T. ) ;
#252 = CARTESIAN_POINT ( 'NONE',  ( 1.500000000000000000, 0.000000000000000000, 0.000000000000000000 ) ) ;
#253 = EDGE_LOOP ( 'NONE', ( #269, #139, #167, #22 ) ) ;
#254 = APPLICATION_CONTEXT ( 'configuration controlled 3d designs of mechanical parts and assemblies' ) ;
#255 = DIRECTION ( 'NONE',  ( -1.000000000000000000, -0.000000000000000000, -0.000000000000000000 ) ) ;
#256 = EDGE_CURVE ( 'NONE', #168, #137, #65, .T. ) ;
#257 = DIRECTION ( 'NONE',  ( 0.000000000000000000, 0.000000000000000000, 1.000000000000000000 ) ) ;
#258 = EDGE_CURVE ( 'NONE', #200, #221, #10, .T. ) ;
#259 = FACE_OUTER_BOUND ( 'NONE', #246, .T. ) ;
#260 = EDGE_CURVE ( 'NONE', #105, #114, #243, .T. ) ;
#261 = DIRECTION ( 'NONE',  ( -1.000000000000000000, -0.000000000000000000, -0.000000000000000000 ) ) ;
#262 = DIRECTION ( 'NONE',  ( 0.000000000000000000, 0.000000000000000000, 1.000000000000000000 ) ) ;
#263 = DATE_AND_TIME ( #6, #80 ) ;
#264 = ORIENTED_EDGE ( 'NONE', *, *, #303, .F. ) ;
#265 = CARTESIAN_POINT ( 'NONE',  ( -1.614212418857619014, 3.673940397442059868E-16, -3.000000000000000000 ) ) ;
#266 = CIRCLE ( 'NONE', #313, 3.000000000000000000 ) ;
#267 = FACE_OUTER_BOUND ( 'NONE', #239, .T. ) ;
#268 = CC_DESIGN_PERSON_AND_ORGANIZATION_ASSIGNMENT ( #87, #193, ( #270 ) ) ;
#269 = ORIENTED_EDGE ( 'NONE', *, *, #330, .F. ) ;
#270 = PRODUCT_DEFINITION_FORMATION_WITH_SPECIFIED_SOURCE ( 'ANY', '', #317, .NOT_KNOWN. ) ;
#271 = ADVANCED_FACE ( 'NONE', ( #290, #267 ), #282, .F. ) ;
#272 = PERSON_AND_ORGANIZATION_ROLE ( 'creator' ) ;
#273 = EDGE_CURVE ( 'NONE', #197, #114, #89, .T. ) ;
#274 = CARTESIAN_POINT ( 'NONE',  ( -1.614212418857619014, 0.000000000000000000, 3.000000000000000000 ) ) ;
#275 = CIRCLE ( 'NONE', #28, 3.000000000000000000 ) ;
#276 = ORIENTED_EDGE ( 'NONE', *, *, #113, .F. ) ;
#277 = DIRECTION ( 'NONE',  ( 1.000000000000000000, 0.000000000000000000, 0.000000000000000000 ) ) ;
#278 = PLANE ( 'NONE',  #198 ) ;
#279 = FACE_OUTER_BOUND ( 'NONE', #68, .T. ) ;
#280 = DIRECTION ( 'NONE',  ( -1.000000000000000000, -0.000000000000000000, -0.000000000000000000 ) ) ;
#281 = AXIS2_PLACEMENT_3D ( 'NONE', #104, #142, #211 ) ;
#282 = PLANE ( 'NONE',  #162 ) ;
#283 = CARTESIAN_POINT ( 'NONE',  ( -0.5000000000000002220, 0.000000000000000000, 0.000000000000000000 ) ) ;
#284 = ORIENTED_EDGE ( 'NONE', *, *, #98, .T. ) ;
#285 = CALENDAR_DATE ( 2020, 22, 12 ) ;
#286 = CARTESIAN_POINT ( 'NONE',  ( -1.500000000000000000, 0.000000000000000000, 0.000000000000000000 ) ) ;
#287 = ADVANCED_FACE ( 'NONE', ( #215 ), #55, .T. ) ;
#288 = COORDINATED_UNIVERSAL_TIME_OFFSET ( 8, 0, .AHEAD. ) ;
#289 = ORIENTED_EDGE ( 'NONE', *, *, #260, .T. ) ;
#290 = FACE_BOUND ( 'NONE', #201, .T. ) ;
#291 = DATE_TIME_ROLE ( 'creation_date' ) ;
#292 = ORIENTED_EDGE ( 'NONE', *, *, #303, .T. ) ;
#293 = DIRECTION ( 'NONE',  ( 0.000000000000000000, 0.000000000000000000, -1.000000000000000000 ) ) ;
#294 = DIRECTION ( 'NONE',  ( 0.000000000000000000, 0.000000000000000000, 1.000000000000000000 ) ) ;
#295 = EDGE_LOOP ( 'NONE', ( #264, #67 ) ) ;
#296 = EDGE_CURVE ( 'NONE', #250, #200, #208, .T. ) ;
#297 = ORIENTED_EDGE ( 'NONE', *, *, #324, .F. ) ;
#298 = ADVANCED_FACE ( 'NONE', ( #251 ), #185, .F. ) ;
#299 = DIRECTION ( 'NONE',  ( -0.000000000000000000, 0.000000000000000000, 1.000000000000000000 ) ) ;
#300 = VECTOR ( 'NONE', #18, 1000.000000000000000 ) ;
#301 = AXIS2_PLACEMENT_3D ( 'NONE', #233, #153, #72 ) ;
#302 = DIRECTION ( 'NONE',  ( 1.000000000000000000, 0.000000000000000000, 0.000000000000000000 ) ) ;
#303 = EDGE_CURVE ( 'NONE', #219, #137, #35, .T. ) ;
#304 = FACE_OUTER_BOUND ( 'NONE', #30, .T. ) ;
#305 = AXIS2_PLACEMENT_3D ( 'NONE', #308, #111, #307 ) ;
#306 = CARTESIAN_POINT ( 'NONE',  ( -1.500000000000000000, 0.000000000000000000, 5.000000000000000000 ) ) ;
#307 = DIRECTION ( 'NONE',  ( 0.000000000000000000, 0.000000000000000000, 1.000000000000000000 ) ) ;
#308 = CARTESIAN_POINT ( 'NONE',  ( 0.5000000000000004441, 0.000000000000000000, 0.000000000000000000 ) ) ;
#309 = SECURITY_CLASSIFICATION_LEVEL ( 'unclassified' ) ;
#310 = ADVANCED_FACE ( 'NONE', ( #75 ), #101, .F. ) ;
#311 = DIRECTION ( 'NONE',  ( -1.000000000000000000, -0.000000000000000000, -0.000000000000000000 ) ) ;
#312 = APPROVAL_PERSON_ORGANIZATION ( #138, #49, #14 ) ;
#313 = AXIS2_PLACEMENT_3D ( 'NONE', #96, #73, #332 ) ;
#314 = DIRECTION ( 'NONE',  ( 0.000000000000000000, 0.000000000000000000, 1.000000000000000000 ) ) ;
#315 = CIRCLE ( 'NONE', #108, 3.000000000000000000 ) ;
#316 = CARTESIAN_POINT ( 'NONE',  ( -1.614212418857619014, 0.000000000000000000, 0.000000000000000000 ) ) ;
#317 = PRODUCT ( 'Q-DWWP-R42-12.7-1064-SH-M', 'Q-DWWP-R42-12.7-1064-SH-M', '', ( #187 ) ) ;
#318 = ORIENTED_EDGE ( 'NONE', *, *, #32, .T. ) ;
#319 = PERSON_AND_ORGANIZATION ( #15, #232 ) ;
#320 = ORIENTED_EDGE ( 'NONE', *, *, #13, .T. ) ;
#321 = CALENDAR_DATE ( 2020, 22, 12 ) ;
#322 = ORIENTED_EDGE ( 'NONE', *, *, #273, .F. ) ;
#323 = APPROVAL_STATUS ( 'not_yet_approved' ) ;
#324 = EDGE_CURVE ( 'NONE', #114, #197, #228, .T. ) ;
#325 = ORIENTED_EDGE ( 'NONE', *, *, #256, .F. ) ;
#326 = DIRECTION ( 'NONE',  ( -1.000000000000000000, -0.000000000000000000, -0.000000000000000000 ) ) ;
#327 = FACE_OUTER_BOUND ( 'NONE', #295, .T. ) ;
#328 = ADVANCED_FACE ( 'NONE', ( #237 ), #76, .T. ) ;
#329 = DIRECTION ( 'NONE',  ( -1.000000000000000000, -0.000000000000000000, -0.000000000000000000 ) ) ;
#330 = EDGE_CURVE ( 'NONE', #168, #16, #315, .T. ) ;
#331 = DIRECTION ( 'NONE',  ( 0.000000000000000000, 0.000000000000000000, 1.000000000000000000 ) ) ;
#332 = DIRECTION ( 'NONE',  ( 0.000000000000000000, 0.000000000000000000, 1.000000000000000000 ) ) ;
#333 = AXIS2_PLACEMENT_3D ( 'NONE', #286, #127, #102 ) ;
#334 = CIRCLE ( 'NONE', #188, 3.000000000000000000 ) ;
#335 = CARTESIAN_POINT ( 'NONE',  ( 1.500000000000000000, 0.000000000000000000, 5.000000000000000000 ) ) ;
ENDSEC;
END-ISO-10303-21;
